読者です 読者をやめる 読者になる 読者になる

"Dropped on Inferna" Guitar tab

www.youtube.com

0:00∼

3|------------|------------|------------|------------|
4|--5---------|--7----5----|------------|------------|
5|--7---------|--7----7----|--7---------|--9----6----|
6|------------|------------|--8---------|--6----7----|
    1            4    1       1            4    1
    3            3    3       2            1    2

3|------------|------------|------------|------------|
4|--5---------|--7----5----|------------|-------7----|
5|--7---------|--7----7----|--7---------|--9----9----|
6|------------|------------|--6---------|--7---------|
    1            4    1       2            4    1
    3            3    3       1            1    4

0:23∼

3|----------------|----------------|
4|--5---5--4-5-7--|--5---5---------|
5|--7---7--6-6-6--|--7---7--7---7--|
6|----------------|---------8---8--|
    1   1  1 2 4     1   1  1   1
    3   3  3 3 3     3   3  2   2

3|-----------------|----------------|
4|-----------------|----------------|
5|--7---7--7-9-10--|--7---7--9---9--|
6|--6---6--7-7-7---|--8---8--6---6--|
    2   2  1 3 4      1   1  4   4
    1   1  1 1 1      2   2  1   1

1:01∼

3|------------|------------|------------|------------|
4|--5---------|--7----5----|------------|------------|
5|--7---------|--7----7----|--7---------|--9----6----|
6|------------|------------|--8---------|--6----7----|
    1            4    1       1            4    1
    3            3    3       2            1    2

3|------------|------------|------------|------------|
4|--5---------|--7----5----|------------|------------|
5|--7---------|--7----7----|--7---------|--9----10---|
6|------------|------------|--6---------|--7----8----|
    1            4    1       2            4    4
    3            3    3       1            1    1

3|------------|--------------|
4|------------|--------------|
5|--9---------|--6--6--7--6--|
6|--7---------|--7--7--8--7--|
    4            1  1  1  1
    1            2  2  2  2

1:09∼

3|------------|------------|------------|--------------|
4|--9---------|--4----7----|------------|-----10-9--7--|
5|--7---------|--7----7----|--10----9---|--7--7--7--7--|
6|------------|------------|--8-----8---|--8--8--8--8--|
    4            1    1       4     2      1  4  3  1
    1            4    1       1     1      2  1  1  1
                                              2  2  2

3|------------|------------|------------|------------|
4|--9---------|--4----7----|------------|------------|
5|--7---------|--5----5----|--10----7---|--6-----9---|
6|------------|------------|--8-----8---|--7-----7---|
    4            1    4       4     1      1     4
    1            2    1       1     2      2     1

3|------------|------------|------------|--------------|
4|--9---------|--4----7----|------------|-----9--7--10-|
5|--7---------|--7----7----|--10----9---|--7--7--7--7--|
6|------------|------------|--8-----8---|--8--8--8--8--|
    4            1    1       4     2      1  3  1  4
    1            4    1       1     1      2  1  1  1
                                              2  2  2

3|------------|------------|------------|------------|
4|--9---------|--4----7----|------------|--7-----4---|
5|--7---------|--5----5----|--10----7---|--5-----6---|
6|------------|------------|--8-----8---|------------|
    4            1    4       4     1      4     1
    1            2    1       1     2      1     3

2:12∼

3|------------|------------|------------|------------|
4|--5---------|--7----5----|------------|------------|
5|--7---------|--7----7----|--7---------|--9----7----|
6|------------|------------|--6---------|--7----7----|
    1            4    1       2            4    1
    3            3    3       1            1    1

2:17∼

3|------------|------------|------------|------------|
4|------------|------------|--5---------|--7----4----|
5|--6---------|--7----9----|--7---------|--7----7----|
6|--8---------|--8----8----|------------|------------|
    1            1    4       1            4    1
    3            2    2       3            3    4

3|------------|------------|------------|------------|
4|------------|------------|--9----7----|--5----4----|
5|--6---------|--7----9----|--7----7----|--7----5----|
6|--8---------|--8----8----|------------|------------|
    1            1    4       4    1       1    1
    3            2    2       1    1       4    2

3|------------|------------|------------|------------|
4|------------|------------|--5---------|--7----4----|
5|--6---------|--7----9----|--7---------|--7----7----|
6|--8---------|--8----8----|------------|------------|
    1            1    4       1            4    1
    3            2    2       3            3    4

3|------------|------------|------------|------------|
4|------------|------------|------------|------------|
5|--6---------|--7----9----|--9---------|--10---9----|
6|--8---------|--8----8----|--7---------|--8----7----|
    1            1    4       4            4    4
    3            2    2       1            1    1

2:40∼

3|------------|------------|------------|------------|
4|--9---------|--10---9----|--9---------|--4----7----|
5|--7---------|--7----7----|--6---------|--6----6----|
6|------------|------------|------------|------------|
    4            4    4       4            1    2
    1            1    1       1            2    1

3|------------|------------|------------|------------|
4|------------|------------|------------|------------|
5|--10--------|--12---109--|--10-----9--|--7----9----|
6|--8---------|--8----8-8--|--7------7--|--8----7----|
    3            4    4 2     4      4     1    4
    1            1    1 1     1      1     2    1

3|------------|------------|------------|------------|
4|--9---------|--10---9----|--9---------|--4----7----|
5|--7---------|--7----7----|--6---------|--6----6----|
6|------------|------------|------------|------------|
    4            4    4       4            1    2
    1            1    1       1            2    1

3|------------|------------|------------|------------|
4|------------|------------|------------|------------|
5|--10--------|--12---109--|--10-----9--|--7----9----|
6|--8---------|--9----9-9--|--6------7--|--8----7----|
    3            4    4 2     4      4     1    4
    1            1    1 1     1      1     2    1