読者です 読者をやめる 読者になる 読者になる

"Dropped on Inferna" Bass tab

0:00∼

2|------------|------------|------------|------------|
3|------------|------------|------------|------------|
4|--0---------|--0---------|--8---------|--6----7----|

2|------------|------------|------------|------------|
3|------------|------------|------------|-------9----|
4|--0---------|--0---------|--6---------|--7---------|

0:23∼

2|------------|------------|------------|----10---9--|
3|-------6----|------------|------------|---9----8---|
4|--0---------|--0----8----|--6----7----|--8----7----|

1:01∼

2|------------|------------|------------|------------|
3|------------|------------|------------|------------|
4|--0---------|--0---------|--8---------|--6----7----|

2|------------|------------|------------|------------|
3|------------|------------|------------|------------|
4|--0---------|--0---------|--6---------|--7----8----|

2|-----------9--|--------------|
3|-----6--9-----|--------------|
4|--7-----------|--7--7--8--7--|

1:09∼

2|-------------------|----------9-9------|
3|-------------------|------7-7-----7-7--|
4|--0-0-0-0-0-0-0-0--|--0-0--------------|

2|-------------------|--7-7-7-7-10101010-|
3|--------------9-10-|-------------------|
4|--8-8-8-8-8-8------|-------------------|

2|--------------9-9--|----------7-7------|
3|----------7-7------|--5-5-5-5-----5-5--|
4|--0-0-0-0----------|-------------------|

2|-------------------|----------9-7------|
3|--------109-7------|------9-10----109--|
4|--8-8-8-------108--|--7-7--------------|

2|-------------------|----------9-9------|
3|-------------------|------7-7-----7-7--|
4|--0-0-0-0-0-0-0-0--|--0-0--------------|

1|-------------------|------9-9----------|
2|-------------------|--7-7-----9-9-1010-|
3|--------------9-10-|-------------------|
4|--8-8-8-8-8-8------|-------------------|

2|--------------9-9--|----------7-7-9-9--|
3|----------7-7------|--5-5-5-5----------|
4|--0-0-0-0----------|-------------------|

2|--1010109-7--------|--------------7-9--|
3|------------109-7--|----7-9-109-10-----|
4|-------------------|--10---------------|

2:12∼

2|------------|------------|------------|------------|
3|------------|------------|------------|-------7----|
4|--0---------|--0---------|--6---------|--7---------|

2:17∼

2|----------1010-----|----------1010-----|
3|------9-9-----9-9--|------9-9-----9-9--|
4|--8-8--------------|--8-8--------------|

2|-------------------|-------------------|
3|--10109-9-----9-9--|--10109-9-----9-9--|
4|----------7-7------|----------7-7------|

2|----------1010-----|----------1010-----|
3|------9-9-----9-9--|------9-9-----9-9--|
4|--8-8--------------|--8-8--------------|

2|-------------------|-------------------|
3|-------------------|-------------------|
4|--0-0-0-0-2-2-2-2--|--3-3-3-3-5-5-5-5--|

2|----------1010-----|----------1010-----|
3|------9-9-----9-9--|------9-9-----9-9--|
4|--8-8--------------|--8-8--------------|

2|-------------------|-------------------|
3|--10109-9-----9-9--|--10109-9-----9-9--|
4|----------7-7------|----------7-7------|

2|----------1010-----|----------1010-----|
3|------9-9-----9-9--|------9-9-----9-9--|
4|--8-8--------------|--8-8--------------|

2|-------------------|--8-8--------------|
3|--10109-9-----9-9--|------7-7----------|
4|----------7-7------|----------7--------|

2:40∼

2|------------|------------|------------|------------|
3|------10-9--|--7---------|--6----1210-|--9---------|
4|--0---------|------------|------------|------------|

2|------------|------------|------------|-------9----|
3|------10-9--|--7---------|-------6----|--9---------|
4|--8---------|------------|--7---------|------------|

2|------------|------------|------------|------------|
3|------10-9--|--7---------|--6----1210-|--9---------|
4|--0---------|------------|------------|------------|

2|------10-9--|--7------9--|--8---------|-------9----|
3|------------|------------|----7-------|----7----9--|
4|--8---------|------------|-------6-7--|--8---------|