読者です 読者をやめる 読者になる 読者になる

"Dew of Blood" Bass tab

0:00∼

2|------------------|---------------|--------------|---------------|
3|------------------|---------------|--6-----7-----|--4-----5------|
4|--3---------------|--2-----1------|--------------|---------------|

0:28∼

1|------12----------|---------------|--------------|----------------|
2|----------12------|-----8---------|--------8-----|--7--5-4--------|
3|--10----------10--|--9---------8--|--6--------7--|----------5-----|
4|------------------|--------10-----|-----6--------|----------------|

1|------12----------|---------------|--------------|--7-------------|
2|----------12------|-----8---------|--------8-----|-----10-8--7----|
3|--10----------10--|--9---------8--|--6--------7--|----------------|
4|------------------|--------10-----|-----6--------|----------------|

1|------12----------|---------------|--------------|----------------|
2|----------12------|-----8---------|--------8-----|--7--5-4--------|
3|--10----------10--|--9---------8--|--6--------7--|----------5-----|
4|------------------|--------10-----|-----6--------|----------------|

1|------12----------|---------------|--------7-----|--5----------------|
2|----------12------|-----8---------|-----------7--|-----8-7----4-5-7--|
3|--10----------10--|--9---------8--|--6-----------|----------5--------|
4|------------------|--------10-----|-----6--------|-------------------|

0:55∼

2|---------------------|---------------|----------------|--------------|
3|--10----10-13-12-10--|--9------------|--8----8-5-7-8--|--9----12-----|
4|---------------------|---------------|----------------|--------------|

1:35∼

2|---------------------|-----12--10--12--|
3|--10----10-13-12-10--|--9--------------|
4|---------------------|-----------------|

2|----------------|-----------10-8-7--|
3|--8----8-5-7-8--|--7--7-------------|
4|----------------|-------6-8---------|

2|---------------------|-----12--10--12--|
3|--10----10-13-12-10--|--9--------------|
4|---------------------|-----------------|

2|----------------|----------------|
3|--8----8-5-7-8--|--7-------------|
4|----------------|--------0-------|

1:48∼

2|------------------|--------10-----|--------------|--8------------|
3|--12--------------|--10-----------|--8-----------|--------7------|
4|------------------|---------------|--------8-----|---------------|

2|------------------|--------10-----|--------------|--------9------|
3|--12--------------|--10-----------|--8-----------|--7------------|
4|------------------|---------------|--------8-----|---------------|

2:15∼

1|------------------|------------------|------------------|------------------|
2|----------14------|------------------|----------12------|------------------|
3|--12--15------12--|--11--14--12--11--|--10--14------10--|--11--14--12--11--|

1|------------------|------------------|------------------|------------------|
2|----------14------|------------------|----------12------|------------------|
3|--12--15------12--|--11--14--12--11--|--10--14------10--|---9--12--10---9--|

1|------------------|------------------|----9-7--------------|---------------|
2|-----------8---9--|------------------|--------10-9-7-------|---------------|
3|---8--12----------|---8--------------|--7------------10-9--|--7-----9------|

3:51∼

1|------------------|--12------14--16--|--17------16--14--|--13--------------|
2|----------14--15--|------------------|------------------|------15--14--12--|
3|--12--------------|------------------|------------------|------------------|

1|------------------|--12--19--17--16--|--17------16--14--|--13--------------|
2|----------14--15--|------------------|------------------|------------------|
3|--12--------------|------------------|------------------|-----------7------|