読者です 読者をやめる 読者になる 読者になる

"Dew of Blood" Guitar tab

0:00∼

3|---7---7---8--|------------------|----------------|--------------|
4|---8---7---8--|--10--12--12--10--|--10--8--8--10--|--------------|
5|--10--10--10--|---9---9---8---8--|---6--6--7---7--|--13--10--12--|
6|--------------|------------------|----------------|---9---9--10--|
     1   1   1      2   4   4   2      4  2  2   4      4   2   4
     2   1   1      1   1   1   1      1  1  1   1      1   1   1
     4   4   4

0:55∼

3|---7----------|------------------|---5----------|------------------|
4|---8----------|---7--10---8---7--|---7----------|---7--10---8---7--|
5|--10----------|---9---9---9---9--|---8----------|---9---9---9---9--|
     1              1   4   2   1      1              1   4   2   1   
     2              3   3   3   3      2              3   3   3   3   
     4                                 4

1:35∼

3|---7----------|------------------|---5----------|------------------|
4|---8----------|---7--10---8---7--|---7----------|---5---8---7---5--|
5|--10----------|---9---9---9---9--|---8----------|---7---7---7---7--|
     1              1   4   2   1      1              1   4   4   1   
     2              3   3   3   3      2              3   3   3   3   
     4                                 4        

3|---7----------|------------------|---5----------|---5-------4------|
4|---8----------|---7--10---8---7--|---7----------|---5-------6------|
5|--10----------|---9---9---9---9--|---8----------|---7-------7------|
     1              1   4   2   1      1              1       1       
     2              3   3   3   3      2              1       3       
     4                                 4              3       4

1:48∼

3|---9-----10---|--12-----12---|--12-----10---|--10------9---|
4|--10------9---|--12-----10---|--10-----12---|---8------9---|
5|--12-----12---|--10-----10---|---8------8---|---7------7---|
     1      2       4      4       4      2       4      4    
     2      1       3      1       2      4       2      3    
     4      4       1      1       1      1       1      1    

3|---9-----10---|--12-----12---|--12-----10---|---9------7---|
4|--10------9---|--12-----10---|--10-----12---|---6------9---|
5|--12-----12---|--10-----10---|---8------8---|---7------7---|
     1      2       4      4       4      2       4      1    
     2      1       3      1       2      4       2      3    
     4      4       1      1       1      1       1      1    

4:42∼

3|---9----------|------------------|---7----------|------------------|
4|--10----------|---9--12--10---9--|---9----------|---9--12--10---9--|
5|--12----------|--11--11--11--11--|--10----------|--11--11--11--11--|
     1                                 1                            
     2              1   4   2   1      3              1   4   2   1 
     4              3   3   3   3      4              3   3   3   3 

3|---9----------|------------------|---7----------|------------------|
4|--10----------|---9--12--10---9--|---9----------|---7--10---9---7--|
5|--12----------|--11--11--11--11--|--10----------|---9---9---9---9--|
     1                                 1                            
     2              1   4   2   1      3              1   4   4   1 
     4              3   3   3   3      4              3   3   3   3 

3|---5----------|------------------|---4----------|---5-------6------|
4|---7----------|---7--10---9---7--|---6----------|---5-------8------|
5|---8----------|---8---8---8---8--|---7----------|---7-------9------|
     1                                 1                      1
     3              1   4   2   1      3              1       3
     4              3   3   3   3      4              3       4

3|---7----------|
4|---9----------|
5|---9----------|
     1
     3
     4