読者です 読者をやめる 読者になる 読者になる

ああああ

どうもお久しぶりです。

少し前にファイルサーバのデータをミスって消失してしまったため、

作っていた曲のデータも全部なくなりましたーorz

というわけで気長にお待ち下さいヽ(´ー`)ノ

買った音源 2012年4月

今年最初のCD購入です。


Cognitive

Cognitive

OPETHのMartin LopezとSADUSや元DEATHのSteve DiGiorgioがいることで話題のプロジェクトです。
曲調的にはTOOLっぽいらしいですがほとんど聴いたことないのでよくわかりません。
とりあえず"Damnation"のようなドラムが聴けたので満足です。
あとVoが自分の好みでよかったです。


この世界を誰にも語らせないように

この世界を誰にも語らせないように

まだ1回しか聴いてませんが、"TW"が入ってるだけで満足です。
アンインストールはなくてよかったかなーと思いました。

"Amakakeru" Guitar tab

0:00∼

4|--1----3----|--5---------|-------6----|--5----3----|
5|--3----3----|--3----3----|--2----4----|--4----4----|
6|------------|-------4----|--3---------|------------|
    1    1       4    1       1    4       2    1     
    3    1       1    2       2    1       1    2     

4|--1----3----|--5---------|-------8----|--6----3----|
5|--3----3----|--3----3----|--5----5----|--5----5----|
6|------------|-------4----|--6---------|------------|
    1    1       4    1       1    4       2    1     
    3    1       1    2       2    1       1    3     

0:16∼

4|--1---------|--5---------|--5----6--8--|--3---------|
5|--3---------|--3---------|--6----6--6--|--5---------|
    1            4            1    1  4     1          
    3            1            2    1  1     3          

2|-------------|-------------|-------3--4--|------------|
3|-------------|-------------|-------4--4--|------------|
4|--6----8--6--|--4---5---7--|-------5--5--|--5----3----|
5|--8----8--8--|--5---5---5--|--5----------|--5----5----|
6|-------------|-------------|--3----------|------------|
    1    4  1     1   1   4     1    1  1     4    1     
    3    3  3     2   1   1     3    2  1     3    3     
                                     4  4              

1:30∼

3|--5----4----|------------|------------|------------|
4|--7----7----|--9----10---|--9----7----|--7----6----|
5|------------|--7----7----|--8----8----|--5----7----|
    1    1       4    4       4    1       4    1     
    4    4       1    1       2    2       1    2     

3|--5----4----|------------|--10---9----|--8----9----|
4|--7----7----|--9----10---|--9----7----|--9----6----|
5|------------|--7----7----|--8----8----|--9----7----|
    1    1       4    4       4    4       1    4     
    4    4       1    1       2    1       3    1     
                              1    2       2    2    

"Dew of Blood" Bass tab

0:00∼

2|------------------|---------------|--------------|---------------|
3|------------------|---------------|--6-----7-----|--4-----5------|
4|--3---------------|--2-----1------|--------------|---------------|

0:28∼

1|------12----------|---------------|--------------|----------------|
2|----------12------|-----8---------|--------8-----|--7--5-4--------|
3|--10----------10--|--9---------8--|--6--------7--|----------5-----|
4|------------------|--------10-----|-----6--------|----------------|

1|------12----------|---------------|--------------|--7-------------|
2|----------12------|-----8---------|--------8-----|-----10-8--7----|
3|--10----------10--|--9---------8--|--6--------7--|----------------|
4|------------------|--------10-----|-----6--------|----------------|

1|------12----------|---------------|--------------|----------------|
2|----------12------|-----8---------|--------8-----|--7--5-4--------|
3|--10----------10--|--9---------8--|--6--------7--|----------5-----|
4|------------------|--------10-----|-----6--------|----------------|

1|------12----------|---------------|--------7-----|--5----------------|
2|----------12------|-----8---------|-----------7--|-----8-7----4-5-7--|
3|--10----------10--|--9---------8--|--6-----------|----------5--------|
4|------------------|--------10-----|-----6--------|-------------------|

0:55∼

2|---------------------|---------------|----------------|--------------|
3|--10----10-13-12-10--|--9------------|--8----8-5-7-8--|--9----12-----|
4|---------------------|---------------|----------------|--------------|

1:35∼

2|---------------------|-----12--10--12--|
3|--10----10-13-12-10--|--9--------------|
4|---------------------|-----------------|

2|----------------|-----------10-8-7--|
3|--8----8-5-7-8--|--7--7-------------|
4|----------------|-------6-8---------|

2|---------------------|-----12--10--12--|
3|--10----10-13-12-10--|--9--------------|
4|---------------------|-----------------|

2|----------------|----------------|
3|--8----8-5-7-8--|--7-------------|
4|----------------|--------0-------|

1:48∼

2|------------------|--------10-----|--------------|--8------------|
3|--12--------------|--10-----------|--8-----------|--------7------|
4|------------------|---------------|--------8-----|---------------|

2|------------------|--------10-----|--------------|--------9------|
3|--12--------------|--10-----------|--8-----------|--7------------|
4|------------------|---------------|--------8-----|---------------|

2:15∼

1|------------------|------------------|------------------|------------------|
2|----------14------|------------------|----------12------|------------------|
3|--12--15------12--|--11--14--12--11--|--10--14------10--|--11--14--12--11--|

1|------------------|------------------|------------------|------------------|
2|----------14------|------------------|----------12------|------------------|
3|--12--15------12--|--11--14--12--11--|--10--14------10--|---9--12--10---9--|

1|------------------|------------------|----9-7--------------|---------------|
2|-----------8---9--|------------------|--------10-9-7-------|---------------|
3|---8--12----------|---8--------------|--7------------10-9--|--7-----9------|

3:51∼

1|------------------|--12------14--16--|--17------16--14--|--13--------------|
2|----------14--15--|------------------|------------------|------15--14--12--|
3|--12--------------|------------------|------------------|------------------|

1|------------------|--12--19--17--16--|--17------16--14--|--13--------------|
2|----------14--15--|------------------|------------------|------------------|
3|--12--------------|------------------|------------------|-----------7------|

"Dew of Blood" Guitar tab

0:00∼

3|---7---7---8--|------------------|----------------|--------------|
4|---8---7---8--|--10--12--12--10--|--10--8--8--10--|--------------|
5|--10--10--10--|---9---9---8---8--|---6--6--7---7--|--13--10--12--|
6|--------------|------------------|----------------|---9---9--10--|
     1   1   1      2   4   4   2      4  2  2   4      4   2   4
     2   1   1      1   1   1   1      1  1  1   1      1   1   1
     4   4   4

0:55∼

3|---7----------|------------------|---5----------|------------------|
4|---8----------|---7--10---8---7--|---7----------|---7--10---8---7--|
5|--10----------|---9---9---9---9--|---8----------|---9---9---9---9--|
     1              1   4   2   1      1              1   4   2   1   
     2              3   3   3   3      2              3   3   3   3   
     4                                 4

1:35∼

3|---7----------|------------------|---5----------|------------------|
4|---8----------|---7--10---8---7--|---7----------|---5---8---7---5--|
5|--10----------|---9---9---9---9--|---8----------|---7---7---7---7--|
     1              1   4   2   1      1              1   4   4   1   
     2              3   3   3   3      2              3   3   3   3   
     4                                 4        

3|---7----------|------------------|---5----------|---5-------4------|
4|---8----------|---7--10---8---7--|---7----------|---5-------6------|
5|--10----------|---9---9---9---9--|---8----------|---7-------7------|
     1              1   4   2   1      1              1       1       
     2              3   3   3   3      2              1       3       
     4                                 4              3       4

1:48∼

3|---9-----10---|--12-----12---|--12-----10---|--10------9---|
4|--10------9---|--12-----10---|--10-----12---|---8------9---|
5|--12-----12---|--10-----10---|---8------8---|---7------7---|
     1      2       4      4       4      2       4      4    
     2      1       3      1       2      4       2      3    
     4      4       1      1       1      1       1      1    

3|---9-----10---|--12-----12---|--12-----10---|---9------7---|
4|--10------9---|--12-----10---|--10-----12---|---6------9---|
5|--12-----12---|--10-----10---|---8------8---|---7------7---|
     1      2       4      4       4      2       4      1    
     2      1       3      1       2      4       2      3    
     4      4       1      1       1      1       1      1    

4:42∼

3|---9----------|------------------|---7----------|------------------|
4|--10----------|---9--12--10---9--|---9----------|---9--12--10---9--|
5|--12----------|--11--11--11--11--|--10----------|--11--11--11--11--|
     1                                 1                            
     2              1   4   2   1      3              1   4   2   1 
     4              3   3   3   3      4              3   3   3   3 

3|---9----------|------------------|---7----------|------------------|
4|--10----------|---9--12--10---9--|---9----------|---7--10---9---7--|
5|--12----------|--11--11--11--11--|--10----------|---9---9---9---9--|
     1                                 1                            
     2              1   4   2   1      3              1   4   4   1 
     4              3   3   3   3      4              3   3   3   3 

3|---5----------|------------------|---4----------|---5-------6------|
4|---7----------|---7--10---9---7--|---6----------|---5-------8------|
5|---8----------|---8---8---8---8--|---7----------|---7-------9------|
     1                                 1                      1
     3              1   4   2   1      3              1       3
     4              3   3   3   3      4              3       4

3|---7----------|
4|---9----------|
5|---9----------|
     1
     3
     4